Pokémon Pearl RPG
Olá Visitante Seja Bem Vindo Ao Pokemon Pearl RPG,Para Você Ver Os Topicos Do Forum Você Precisa Se Cadastra No Forum. Então Participe e Aproveite Para Vota No PEARL no TOP30 >>>>VOTE AQUI <<<<

ATENCIOSAMENTE: TOBY KUMI E AKIZUKI KUMI

como tocar mm2wood.mid

Ver o tópico anterior Ver o tópico seguinte Ir em baixo

como tocar mm2wood.mid

Mensagem por meupai em 03.01.17 21:19

Bass2 = Synth Drum 119
      Q     Q     S S  E   Q        S S  E   S. E  T S.  E   E  S  S.
G||--------10-------------10----|-----------10--------------10-------|
D||--10----------10---10--------|--10---10-----10--L----10--------10-|
A||-----------------------------|------------------------------------|
E||-----------------------------|------------------------------------|


  T E  S.  E.  T  S S  E   E.  S  T    T S  E   S. E  E  T  E   S. S S.  T 
----------10--------------10--------|----------10--------------10----------|
--L--------------10---10---------10-|--L---10-----10-------10-----10----10-|
----8-------------------------------|--------------------------------------|
------------------------------------|--------------------------------------|


  E.   Q     Q     Q    T  T    E.  T  Q     Q     E   E  T 
------10----------10---------|--------10----------10--------|
--L---------10------------10-|--L---L-------10--------10--L-|
-----------------------------|------------------------------|
-----------------------------|------------------------------|


  T S  E   E   E   Q     Q     T    E.  T  Q    T  Q     E   S.T 
----------10------------10-------|--------12----L-------12-------|
--L---10------10--10----------10-|--L---L---------10--------10---|
---------------------------------|-------------------------------|
---------------------------------|-------------------------------|


  E   E  T  S  S S  Q     S  T E  T  T    E.  T  Q     Q    T  E   E  
-----------12------------12-10---------|--------12------------12------|
-----10-------10---10---------------10-|--L---L-------10----------10--|
---------------------------------------|------------------------------|
---------------------------------------|------------------------------|


  E   S  E  T  S S  Q     Q     T    E.  T  Q     Q     E  T  E  
--------12--L------------12-------|--------10----------10--------|
-----10-------10---10----------10-|--L---L-------10----------10--|
----------------------------------|------------------------------|
----------------------------------|------------------------------|


  E   S.T  S. S.S  E.  T  Q     T    E.  T  Q    T  Q     E   E  
----------10-------------10-------|--------10----L-------10------|
-----10------10---10---L-------10-|--L---L---------10--------10--|
----------------------------------|------------------------------|
----------------------------------|------------------------------|


  S S  E   E   S S  E.  T  Q     T    Q     Q     E.  T  E   E  T 
----------10--------------10-------|-------12-----------12--------|
--L---10------10---10---L-------10-|--L----15----10---L-----10----|
-----------------------------------|------------------------------|
-----------------------------------|------------------------------|


  S.  E   S. E  T  E.  T  Q    T  T    E.  T  Q     Q     E   E  T 
---------12--------------12----L----|--------12----------12--------|
-----10-----10----10---L---------10-|--L---L-------10--------10--L-|
------------------------------------|------------------------------|
------------------------------------|------------------------------|


  T S.  S. E   S.T  Q     Q     T    E.  T T  Q     Q     E   E  
----------12-------------12-------|----------10----------10------|
--L----10-----10---10----------10-|--L---L---------10--------10--|
----------------------------------|------------------------------|
----------------------------------|------------------------------|


  T S.  E   S. E  T  E.  T  Q     T    E.  T  Q     Q    T  S. E  T 
-----------10--------------10-------|--------10------------10-------|
--L----10-----10----10---L-------10-|--L---L-------10---------10--L-|
------------------------------------|-------------------------------|
------------------------------------|-------------------------------|


  E   E   S. E  T  Q     Q        Q     Q     Q     E   E  
---------10-------------10----|--------12----------12------|
-----10-----10----10----------|--10----------10--------10--|
------------------------------|----------------------------|
------------------------------|----------------------------|


  E   E   S. E   E.  T T  E.  T T  T    Q     Q     S S  E   E   E  
---------12--------------12---L------|-------13-------------13------|
-----10-----10--10---L------------10-|--L----------10---10------10--|
-------------------------------------|------------------------------|
-------------------------------------|------------------------------|


  S S  E   Q     Q     E.  T  T    Q     E.  T  Q     S.T  E  T 
----------13----------13---L----|-------15---L-------15---------|
--L---10--------10-----------10-|--L----------------------------|
--------------------------------|--------------15---------15--L-|
--------------------------------|-------------------------------|


  T S  E   E   S.T  Q     E.  T T  T    E.  T  Q     Q     E   E  T 
-------------------------------------|------------------------------|
----------15-------------------------|--------15----------15--------|
--L---15------15---15-------------15-|--L---L-------15--------15--L-|
-------------------------13---L------|------------------------------|


  T S  E   E   E   Q     Q     T    E.  T  Q    T  Q     E   S.T 
---------------------------------|--------12----L-------12-------|
----------15------------15-------|----------------10--------10---|
--L---15------15--15----------15-|--L---L------------------------|
---------------------------------|-------------------------------|


  E   E  T  S  S S  Q     S  T E  T  T    E.  T  Q     Q    T  E   E  
-----------12------------12-10---------|--------12------------12------|
-----10-------10---10---------------10-|--L---L-------10----------10--|
---------------------------------------|------------------------------|
---------------------------------------|------------------------------|


  E   S  E  T  S S  Q     Q     T    E.  T  Q     Q     E  T  E  
--------12--L------------12-------|--------10----------10--------|
-----10-------10---10----------10-|--L---L-------10----------10--|
----------------------------------|------------------------------|
----------------------------------|------------------------------|


  E   S.T  S. S.S  E.  T  Q     T    E.  T  Q    T  Q     E   E  
----------10-------------10-------|--------10----L-------10------|
-----10------10---10---L-------10-|--L---L---------10--------10--|
----------------------------------|------------------------------|
----------------------------------|------------------------------|


  S S  E   E   S S  E.  T  Q     T    Q     Q     E.  T  E   E  T 
----------10--------------10-------|-------12-----------12--------|
--L---10------10---10---L-------10-|--L----15----10---L-----10----|
-----------------------------------|------------------------------|
-----------------------------------|------------------------------|


  S.  E   S. E  T  E.  T  Q    T  T    E.  T  Q     Q     E   E  T 
---------12--------------12----L----|--------12----------12--------|
-----10-----10----10---L---------10-|--L---L-------10--------10--L-|
------------------------------------|------------------------------|
------------------------------------|------------------------------|


  T S.  S. E   S.T  Q     Q     T    E.  T T  Q     Q     E   E  
----------12-------------12-------|----------10----------10------|
--L----10-----10---10----------10-|--L---L---------10--------10--|
----------------------------------|------------------------------|
----------------------------------|------------------------------|


  T S.  E   S. E  T  E.  T  Q     T    E.  T  Q     Q    T  S. E  T 
-----------10--------------10-------|--------10------------10-------|
--L----10-----10----10---L-------10-|--L---L-------10---------10--L-|
------------------------------------|-------------------------------|
------------------------------------|-------------------------------|


  E   E   S. E  T  Q     Q        Q     Q     Q     E   E  
---------10-------------10----|--------12----------12------|
-----10-----10----10----------|--10----------10--------10--|
------------------------------|----------------------------|
------------------------------|----------------------------|


  E   E   S. E   E.  T T  E.  T T  T    Q     Q     S S  E   E   E  
---------12--------------12---L------|-------13-------------13------|
-----10-----10--10---L------------10-|--L----------10---10------10--|
-------------------------------------|------------------------------|
-------------------------------------|------------------------------|


  S S  E   Q     Q     E.  T  T    Q     E.  T  Q     S.T  E  T 
----------13----------13---L----|-------15---L-------15---------|
--L---10--------10-----------10-|--L----------------------------|
--------------------------------|--------------15---------15--L-|
--------------------------------|-------------------------------|


  T S  E   E   S.T  Q     E.  T T  T    E.  T H        Q    T  
-------------------------------------|------------------------||
----------15-------------------------|------------------------||
--L---15------15---15-------------15-|--L---L-----------------||
-------------------------13---L------|------------------------||




Duration Legend
---------------
W - whole
H - half
Q - quarter
E - 8th
S - 16th
T - 32nd
X - 64th
. - note dotted
|-n-|  - n-tuplets


Tablature Legend
----------------
L - tied note
x - dead note
g - grace note
(n) - ghost note
> - accentuded note
NH - natural harmonic
AH - artificial harmonic
TH - tapped harmonic
SH - semi harmonic
PH - pitch harmonic
h - hammer on
p - pull off
b - bend
br - bendRelease
pb - preBend
pbr - preBendRelease
brb - bendReleaseBend
\n/ - tremolo bar dip
\n - tremolo bar dive
-/n - tremolo bar Release up
/n\ - tremolo bar inverted dip
/n - tremolo bar return
-\n - tremolo bar Release down
S - shift slide
s - legato slide
/ -  slide into from below or out of upwards
\ -  slide into from above or out of downwards
~ - vibrato
W - wide vibrato
tr - trill
TP - tremolo picking
T - tapping
S - slap
P - pop
< - fade in
^ - brush up
v - brush down
avatar
meupai
Treinado inicial
Treinado inicial

Masculino Mensagens : 22
Popularidade : 87
Data de inscrição : 27/10/2016
Localização : mm2wood.mid
Humor : Siivagunner

Ver perfil do usuário

Voltar ao Topo Ir em baixo

Ver o tópico anterior Ver o tópico seguinte Voltar ao Topo


 
Permissão deste fórum:
Você não pode responder aos tópicos neste fórum